ISO-10303-21;
HEADER;
FILE_DESCRIPTION (( 'STEP AP203' ),
    '1' );
FILE_NAME ('BK7-RNDF-25.4-2.STEP',
    '2020-12-22T01:28:24',
    ( '' ),
    ( '' ),
    'SwSTEP 2.0',
    'SolidWorks 2020',
    '' );
FILE_SCHEMA (( 'CONFIG_CONTROL_DESIGN' ));
ENDSEC;

DATA;
#1 = EDGE_LOOP ( 'NONE', ( #125, #136, #112, #32 ) ) ;
#2 = CARTESIAN_POINT ( 'NONE',  ( -1.187907395172932594E-15, 1.555301434917138433E-15, -12.69999999999999929 ) ) ;
#3 = AXIS2_PLACEMENT_3D ( 'NONE', #83, #6, #102 ) ;
#4 = DIRECTION ( 'NONE',  ( 0.000000000000000000, 0.000000000000000000, 1.000000000000000000 ) ) ;
#5 = CC_DESIGN_DATE_AND_TIME_ASSIGNMENT ( #63, #90, ( #77 ) ) ;
#6 = DIRECTION ( 'NONE',  ( -1.000000000000000000, -0.000000000000000000, -0.000000000000000000 ) ) ;
#7 = ADVANCED_FACE ( 'NONE', ( #60 ), #129, .T. ) ;
#8 = DIRECTION ( 'NONE',  ( 0.000000000000000000, 0.000000000000000000, 1.000000000000000000 ) ) ;
#9 = PERSON_AND_ORGANIZATION_ROLE ( 'creator' ) ;
#10 = ADVANCED_FACE ( 'NONE', ( #56 ), #18, .F. ) ;
#11 = SHAPE_DEFINITION_REPRESENTATION ( #52, #13 ) ;
#12 = CC_DESIGN_SECURITY_CLASSIFICATION ( #104, ( #59 ) ) ;
#13 = ADVANCED_BREP_SHAPE_REPRESENTATION ( 'BK7-RNDF-25.4-2', ( #147, #172 ), #66 ) ;
#14 = PRODUCT ( 'BK7-RNDF-25.4-2', 'BK7-RNDF-25.4-2', '', ( #36 ) ) ;
#15 = VERTEX_POINT ( 'NONE', #72 ) ;
#16 = EDGE_LOOP ( 'NONE', ( #28, #82 ) ) ;
#17 = EDGE_CURVE ( 'NONE', #41, #30, #27, .T. ) ;
#18 = PLANE ( 'NONE',  #150 ) ;
#19 = DIRECTION ( 'NONE',  ( 0.000000000000000000, 0.000000000000000000, 1.000000000000000000 ) ) ;
#20 = LOCAL_TIME ( 9, 28, 24.00000000000000000, #120 ) ;
#21 = VERTEX_POINT ( 'NONE', #62 ) ;
#22 = CALENDAR_DATE ( 2020, 22, 12 ) ;
#23 = DESIGN_CONTEXT ( 'detailed design', #35, 'design' ) ;
#24 = DATE_TIME_ROLE ( 'classification_date' ) ;
#25 = PERSON_AND_ORGANIZATION ( #119, #96 ) ;
#26 = LOCAL_TIME ( 9, 28, 24.00000000000000000, #130 ) ;
#27 = CIRCLE ( 'NONE', #34, 12.69999999999999929 ) ;
#28 = ORIENTED_EDGE ( 'NONE', *, *, #57, .T. ) ;
#29 = CYLINDRICAL_SURFACE ( 'NONE', #3, 12.69999999999999929 ) ;
#30 = VERTEX_POINT ( 'NONE', #170 ) ;
#31 = AXIS2_PLACEMENT_3D ( 'NONE', #141, #100, #4 ) ;
#32 = ORIENTED_EDGE ( 'NONE', *, *, #17, .F. ) ;
#33 = PRODUCT_RELATED_PRODUCT_CATEGORY ( 'detail', '', ( #14 ) ) ;
#34 = AXIS2_PLACEMENT_3D ( 'NONE', #71, #140, #86 ) ;
#35 = APPLICATION_CONTEXT ( 'configuration controlled 3d designs of mechanical parts and assemblies' ) ;
#36 = MECHANICAL_CONTEXT ( 'NONE', #92, 'mechanical' ) ;
#37 = CIRCLE ( 'NONE', #162, 12.69999999999999929 ) ;
#38 = APPLICATION_PROTOCOL_DEFINITION ( 'international standard', 'config_control_design', 1994, #35 ) ;
#39 = EDGE_LOOP ( 'NONE', ( #67, #80, #113, #95 ) ) ;
#40 = CC_DESIGN_PERSON_AND_ORGANIZATION_ASSIGNMENT ( #132, #151, ( #59 ) ) ;
#41 = VERTEX_POINT ( 'NONE', #2 ) ;
#42 = CC_DESIGN_APPROVAL ( #122, ( #59 ) ) ;
#43 = DIRECTION ( 'NONE',  ( -1.000000000000000000, -0.000000000000000000, -0.000000000000000000 ) ) ;
#44 = EDGE_CURVE ( 'NONE', #21, #15, #167, .T. ) ;
#45 =( NAMED_UNIT ( * ) SI_UNIT ( $, .STERADIAN. ) SOLID_ANGLE_UNIT ( ) );
#46 = PLANE ( 'NONE',  #61 ) ;
#47 = APPLICATION_PROTOCOL_DEFINITION ( 'international standard', 'config_control_design', 1994, #92 ) ;
#48 = CARTESIAN_POINT ( 'NONE',  ( 1.999999999999999112, 12.69999999999999929, 0.000000000000000000 ) ) ;
#49 = CARTESIAN_POINT ( 'NONE',  ( 0.000000000000000000, 0.000000000000000000, 0.000000000000000000 ) ) ;
#50 = EDGE_CURVE ( 'NONE', #15, #30, #168, .T. ) ;
#51 = PERSON_AND_ORGANIZATION_ROLE ( 'design_supplier' ) ;
#52 = PRODUCT_DEFINITION_SHAPE ( 'NONE', 'NONE',  #77 ) ;
#53 = ORIENTED_EDGE ( 'NONE', *, *, #44, .F. ) ;
#54 = VECTOR ( 'NONE', #98, 1000.000000000000000 ) ;
#55 = CARTESIAN_POINT ( 'NONE',  ( 0.000000000000000000, 1.555301434917138433E-15, -12.69999999999999929 ) ) ;
#56 = FACE_OUTER_BOUND ( 'NONE', #16, .T. ) ;
#57 = EDGE_CURVE ( 'NONE', #30, #41, #64, .T. ) ;
#58 = DIRECTION ( 'NONE',  ( -1.000000000000000000, -0.000000000000000000, -0.000000000000000000 ) ) ;
#59 = PRODUCT_DEFINITION_FORMATION_WITH_SPECIFIED_SOURCE ( 'ANY', '', #14, .NOT_KNOWN. ) ;
#60 = FACE_OUTER_BOUND ( 'NONE', #39, .T. ) ;
#61 = AXIS2_PLACEMENT_3D ( 'NONE', #48, #114, #156 ) ;
#62 = CARTESIAN_POINT ( 'NONE',  ( 1.999999999999998224, 1.555301434917138433E-15, -12.69999999999999929 ) ) ;
#63 = DATE_AND_TIME ( #161, #139 ) ;
#64 = CIRCLE ( 'NONE', #31, 12.69999999999999929 ) ;
#65 = COORDINATED_UNIVERSAL_TIME_OFFSET ( 8, 0, .AHEAD. ) ;
#66 =( GEOMETRIC_REPRESENTATION_CONTEXT ( 3 ) GLOBAL_UNCERTAINTY_ASSIGNED_CONTEXT ( ( #87 ) ) GLOBAL_UNIT_ASSIGNED_CONTEXT ( ( #137, #68, #45 ) ) REPRESENTATION_CONTEXT ( 'NONE', 'WORKASPACE' ) );
#67 = ORIENTED_EDGE ( 'NONE', *, *, #144, .T. ) ;
#68 =( NAMED_UNIT ( * ) PLANE_ANGLE_UNIT ( ) SI_UNIT ( $, .RADIAN. ) );
#69 = FACE_OUTER_BOUND ( 'NONE', #1, .T. ) ;
#70 = EDGE_CURVE ( 'NONE', #21, #41, #142, .T. ) ;
#71 = CARTESIAN_POINT ( 'NONE',  ( -1.187907395172932594E-15, 0.000000000000000000, 0.000000000000000000 ) ) ;
#72 = CARTESIAN_POINT ( 'NONE',  ( 1.999999999999998224, 0.000000000000000000, 12.69999999999999929 ) ) ;
#73 = DATE_AND_TIME ( #131, #135 ) ;
#74 = CC_DESIGN_PERSON_AND_ORGANIZATION_ASSIGNMENT ( #25, #51, ( #59 ) ) ;
#75 = PERSON_AND_ORGANIZATION ( #119, #96 ) ;
#76 = APPROVAL_ROLE ( '' ) ;
#77 = PRODUCT_DEFINITION ( 'UNKNOWN', '', #59, #23 ) ;
#78 = CALENDAR_DATE ( 2020, 22, 12 ) ;
#79 = CC_DESIGN_PERSON_AND_ORGANIZATION_ASSIGNMENT ( #106, #160, ( #104 ) ) ;
#80 = ORIENTED_EDGE ( 'NONE', *, *, #70, .T. ) ;
#81 = APPROVAL_PERSON_ORGANIZATION ( #121, #122, #175 ) ;
#82 = ORIENTED_EDGE ( 'NONE', *, *, #17, .T. ) ;
#83 = CARTESIAN_POINT ( 'NONE',  ( 0.000000000000000000, 0.000000000000000000, 0.000000000000000000 ) ) ;
#84 = CARTESIAN_POINT ( 'NONE',  ( 1.999999999999998224, 0.000000000000000000, 0.000000000000000000 ) ) ;
#85 = DIRECTION ( 'NONE',  ( -1.000000000000000000, -0.000000000000000000, -0.000000000000000000 ) ) ;
#86 = DIRECTION ( 'NONE',  ( 0.000000000000000000, 0.000000000000000000, 1.000000000000000000 ) ) ;
#87 = UNCERTAINTY_MEASURE_WITH_UNIT (LENGTH_MEASURE( 1.000000000000000082E-05 ), #137, 'distance_accuracy_value', 'NONE');
#88 = CC_DESIGN_APPROVAL ( #169, ( #104 ) ) ;
#89 = APPROVAL_ROLE ( '' ) ;
#90 = DATE_TIME_ROLE ( 'creation_date' ) ;
#91 = COORDINATED_UNIVERSAL_TIME_OFFSET ( 8, 0, .AHEAD. ) ;
#92 = APPLICATION_CONTEXT ( 'configuration controlled 3d designs of mechanical parts and assemblies' ) ;
#93 = APPROVAL_DATE_TIME ( #73, #153 ) ;
#94 = APPROVAL_STATUS ( 'not_yet_approved' ) ;
#95 = ORIENTED_EDGE ( 'NONE', *, *, #50, .F. ) ;
#96 = ORGANIZATION ( 'UNSPECIFIED', 'UNSPECIFIED', '' ) ;
#97 = APPROVAL_PERSON_ORGANIZATION ( #105, #153, #89 ) ;
#98 = DIRECTION ( 'NONE',  ( -1.000000000000000000, -0.000000000000000000, -0.000000000000000000 ) ) ;
#99 = ORIENTED_EDGE ( 'NONE', *, *, #144, .F. ) ;
#100 = DIRECTION ( 'NONE',  ( -1.000000000000000000, -0.000000000000000000, -0.000000000000000000 ) ) ;
#101 = CARTESIAN_POINT ( 'NONE',  ( 1.999999999999998224, 0.000000000000000000, 0.000000000000000000 ) ) ;
#102 = DIRECTION ( 'NONE',  ( 0.000000000000000000, 0.000000000000000000, 1.000000000000000000 ) ) ;
#103 = PERSON_AND_ORGANIZATION ( #119, #96 ) ;
#104 = SECURITY_CLASSIFICATION ( '', '', #148 ) ;
#105 = PERSON_AND_ORGANIZATION ( #119, #96 ) ;
#106 = PERSON_AND_ORGANIZATION ( #119, #96 ) ;
#107 = APPROVAL_DATE_TIME ( #133, #169 ) ;
#108 = DIRECTION ( 'NONE',  ( 0.000000000000000000, 0.000000000000000000, 1.000000000000000000 ) ) ;
#109 = CC_DESIGN_APPROVAL ( #153, ( #77 ) ) ;
#110 = CLOSED_SHELL ( 'NONE', ( #7, #166, #152, #10 ) ) ;
#111 = CC_DESIGN_PERSON_AND_ORGANIZATION_ASSIGNMENT ( #75, #163, ( #14 ) ) ;
#112 = ORIENTED_EDGE ( 'NONE', *, *, #50, .T. ) ;
#113 = ORIENTED_EDGE ( 'NONE', *, *, #57, .F. ) ;
#114 = DIRECTION ( 'NONE',  ( -1.000000000000000000, 0.000000000000000000, -0.000000000000000000 ) ) ;
#115 = DIRECTION ( 'NONE',  ( 1.000000000000000000, 0.000000000000000000, 0.000000000000000000 ) ) ;
#116 = CARTESIAN_POINT ( 'NONE',  ( 0.000000000000000000, 0.000000000000000000, 0.000000000000000000 ) ) ;
#117 = DATE_AND_TIME ( #118, #20 ) ;
#118 = CALENDAR_DATE ( 2020, 22, 12 ) ;
#119 = PERSON ( 'UNSPECIFIED', 'UNSPECIFIED', 'UNSPECIFIED', ('UNSPECIFIED'), ('UNSPECIFIED'), ('UNSPECIFIED') ) ;
#120 = COORDINATED_UNIVERSAL_TIME_OFFSET ( 8, 0, .AHEAD. ) ;
#121 = PERSON_AND_ORGANIZATION ( #119, #96 ) ;
#122 = APPROVAL ( #146, 'UNSPECIFIED' ) ;
#123 = DATE_AND_TIME ( #78, #26 ) ;
#124 = CC_DESIGN_DATE_AND_TIME_ASSIGNMENT ( #123, #24, ( #104 ) ) ;
#125 = ORIENTED_EDGE ( 'NONE', *, *, #70, .F. ) ;
#126 = DIRECTION ( 'NONE',  ( -1.000000000000000000, -0.000000000000000000, -0.000000000000000000 ) ) ;
#127 = CARTESIAN_POINT ( 'NONE',  ( -5.939536975864662969E-16, 12.69999999999999929, 0.000000000000000000 ) ) ;
#128 = DIRECTION ( 'NONE',  ( 0.000000000000000000, 0.000000000000000000, 1.000000000000000000 ) ) ;
#129 = CYLINDRICAL_SURFACE ( 'NONE', #134, 12.69999999999999929 ) ;
#130 = COORDINATED_UNIVERSAL_TIME_OFFSET ( 8, 0, .AHEAD. ) ;
#131 = CALENDAR_DATE ( 2020, 22, 12 ) ;
#132 = PERSON_AND_ORGANIZATION ( #119, #96 ) ;
#133 = DATE_AND_TIME ( #22, #164 ) ;
#134 = AXIS2_PLACEMENT_3D ( 'NONE', #116, #85, #8 ) ;
#135 = LOCAL_TIME ( 9, 28, 24.00000000000000000, #91 ) ;
#136 = ORIENTED_EDGE ( 'NONE', *, *, #44, .T. ) ;
#137 =( LENGTH_UNIT ( ) NAMED_UNIT ( * ) SI_UNIT ( .MILLI., .METRE. ) );
#138 = CC_DESIGN_PERSON_AND_ORGANIZATION_ASSIGNMENT ( #149, #9, ( #77 ) ) ;
#139 = LOCAL_TIME ( 9, 28, 24.00000000000000000, #65 ) ;
#140 = DIRECTION ( 'NONE',  ( -1.000000000000000000, -0.000000000000000000, -0.000000000000000000 ) ) ;
#141 = CARTESIAN_POINT ( 'NONE',  ( -1.187907395172932594E-15, 0.000000000000000000, 0.000000000000000000 ) ) ;
#142 = LINE ( 'NONE', #55, #157 ) ;
#143 = APPROVAL_PERSON_ORGANIZATION ( #103, #169, #76 ) ;
#144 = EDGE_CURVE ( 'NONE', #15, #21, #37, .T. ) ;
#145 = AXIS2_PLACEMENT_3D ( 'NONE', #101, #126, #128 ) ;
#146 = APPROVAL_STATUS ( 'not_yet_approved' ) ;
#147 = MANIFOLD_SOLID_BREP ( 'Ðý×', #110 ) ;
#148 = SECURITY_CLASSIFICATION_LEVEL ( 'unclassified' ) ;
#149 = PERSON_AND_ORGANIZATION ( #119, #96 ) ;
#150 = AXIS2_PLACEMENT_3D ( 'NONE', #127, #115, #158 ) ;
#151 = PERSON_AND_ORGANIZATION_ROLE ( 'creator' ) ;
#152 = ADVANCED_FACE ( 'NONE', ( #154 ), #46, .F. ) ;
#153 = APPROVAL ( #94, 'UNSPECIFIED' ) ;
#154 = FACE_OUTER_BOUND ( 'NONE', #155, .T. ) ;
#155 = EDGE_LOOP ( 'NONE', ( #99, #53 ) ) ;
#156 = DIRECTION ( 'NONE',  ( -0.000000000000000000, 0.000000000000000000, 1.000000000000000000 ) ) ;
#157 = VECTOR ( 'NONE', #43, 1000.000000000000000 ) ;
#158 = DIRECTION ( 'NONE',  ( 0.000000000000000000, 0.000000000000000000, -1.000000000000000000 ) ) ;
#159 = DIRECTION ( 'NONE',  ( 1.000000000000000000, 0.000000000000000000, 0.000000000000000000 ) ) ;
#160 = PERSON_AND_ORGANIZATION_ROLE ( 'classification_officer' ) ;
#161 = CALENDAR_DATE ( 2020, 22, 12 ) ;
#162 = AXIS2_PLACEMENT_3D ( 'NONE', #84, #58, #19 ) ;
#163 = PERSON_AND_ORGANIZATION_ROLE ( 'design_owner' ) ;
#164 = LOCAL_TIME ( 9, 28, 24.00000000000000000, #174 ) ;
#165 = CARTESIAN_POINT ( 'NONE',  ( 0.000000000000000000, 0.000000000000000000, 12.69999999999999929 ) ) ;
#166 = ADVANCED_FACE ( 'NONE', ( #69 ), #29, .T. ) ;
#167 = CIRCLE ( 'NONE', #145, 12.69999999999999929 ) ;
#168 = LINE ( 'NONE', #165, #54 ) ;
#169 = APPROVAL ( #171, 'UNSPECIFIED' ) ;
#170 = CARTESIAN_POINT ( 'NONE',  ( -1.187907395172932594E-15, 0.000000000000000000, 12.69999999999999929 ) ) ;
#171 = APPROVAL_STATUS ( 'not_yet_approved' ) ;
#172 = AXIS2_PLACEMENT_3D ( 'NONE', #49, #108, #159 ) ;
#173 = APPROVAL_DATE_TIME ( #117, #122 ) ;
#174 = COORDINATED_UNIVERSAL_TIME_OFFSET ( 8, 0, .AHEAD. ) ;
#175 = APPROVAL_ROLE ( '' ) ;
ENDSEC;
END-ISO-10303-21;
